Chord Lagu

Chord Lagu IU Feat Suga BTS Berjudul Eight, Lagu Korea Tebaru & Trending, Lengkap Lirik & Terjemahan

Kolaborasi IU dan Suga BTS ini sudah sangat dinanti-nanti oleh penggemar keduanya. Makna dari lagu ini menceritakan tentang kehidupan IU

kolase/instagram
IU dan Suga BTS 

SRIPOKU.COM - IU feat Suga BTS akhirnya dirilis melalui kanal YouTube 1theK pada Rabu (6/5/2020).

Usia keduanya memang diketahui sama, yakni 28 tahun menurut perhitungan usia di Korea.

Kolaborasi IU dan Suga BTS ini sudah sangat dinanti-nanti oleh penggemar keduanya. 

'Eight' mengungkapkan perjuangan IU mengatasi pertempuran dan akhirnya mendapat kekuatan untuk melanjutkan hidup.

Sementara Suga, menuangkan perjalanan emosional dalam 'Eight' dengan nada positif.

Sebagai catatan, lirik lagu serta musik diatur dan disusun IU dan Suga.

IU dan Suga tidak sendiri, ada Yoongi yang memainkann piano dan synthesizer dalam 'Eight'.

 Download Full Album Lagu NIKI atau Niki Zefanya, Penyanyi Indonesa yang Satu Label dengan Rich Brian

Berikut video klip Lagu IU Feat Suga BTS - Eight

Chord Lagu IU Feat Suga BTS - Eight

[Intro] capo in first fret
strumming pattern: D-D-D-U-D-U-U-D-U-U-D-U
 
F-C-AM-G-AM
F-C-AM-G(one strumm)
 
[Verse 1]
            F       C
So are you happy now
         AM            G
Finally happy now are you
           F      C
mwo geudaeroya nan
            AM         G
da ilheobeorin geot gata
 
 
[REFRAIN] (pluciking)
 
(FROM 8TH TO 9TH BACK TO 8TH FRET)
e|----3-2------------------------|
B|-1-1--1------------------------|
G|-------------------------------|
D|-------------------------------|
A|-------------------------------|
E|-------------------------------|
 
(2ND FRET)
e|----------------------------------|
B|-1-1-0-1-1-1-1-0-1-0--------------|
G|--------------------0-------------|
D|----------------------------------|
A|----------------------------------|
E|----------------------------------|
modeun ge mamdaero wassdaga insado eopsi tteona
 
(2ND FRET)
e|---------------------------------|
B|-1-1-0-1-0-0-1-0-1-0-------------|
G|---------------------------------|
D|---------------------------------|
A|---------------------------------|
E|---------------------------------|
idaero neun mueosdo saranghago sipji anha
 
(2ND FRET)
e|----------------------------------|
B|-1-1-0-1-1-1-1-0-1-0--------------|
G|--------------------0-------------|
D|----------------------------------|
A|----------------------------------|
E|----------------------------------|
da haejil daero haejyeobeorin
 
(2ND FRET)
e|---------------------------------|
B|-1-1-0-1-0-0-1-0-1-0-1-0---------|
G|------------------------0--------|
D|---------------------------------|
A|---------------------------------|
E|---------------------------------|
gieok sogeul yeohaenghae
 
 
e|----------------------------------|
B|----------------------------------|
G|----------------------------------|
D|----------------------------------|
A|----------------------------------|
E|---4th(slide to 10----------------|th fret then back to 4th fret)
 
 
[Chorus]
          F          C
urineun orenji taeyang arae
             AM            G
geurimja eopsi hamkke chumeul chwo
                F          C
jeonghaejin ibyeol ttawineun eopseo
              AM         G
areumdawossdeon geu gieogeseo manna
 
              F          C-AM-G
Forever we young WOO..WOO
              F          C
Forever we young WOO..WOO
    AM                   G
ireon akmongiramyeon yeongyeong kkaeji anheulge
 
[Verse 2]
(SUGA)
F                      C
seom geurae yeogin seom seoroga mandeun jageun seom
  AM                G
ye eum forever young yeongwoniran mareun moraeseong
             F
jakbyeoreun machi jaenanmunja gatji
  C
geuriumgwa gati majihaneun achim
       AM
seoroga i yeonggeobeul jina
G
kkok i seomeseo dasi manna
 
[REFRAIN] (plucking)
(FROM 8TH TO 9TH BACK TO 8TH FRET)
e|----3-2------------------------|
B|-1-1--1------------------------|
G|-------------------------------|
D|-------------------------------|
A|-------------------------------|
E|-------------------------------|
 
(2ND FRET)
e|----------------------------------|
B|-1-0-1-0-1-0-1-0-1-0-1-0----------|
G|----------------0-------0---------|
D|----------------------------------|
A|----------------------------------|
E|----------------------------------|
jinadeut nal wirohadeon nuguui maldaero gojak
 
(2ND FRET)
e|---------------------------------|
B|-1-1-0-1-0-0-1-0-1-0-------------|
G|---------------------------------|
D|---------------------------------|
A|---------------------------------|
E|---------------------------------|
han ppyeomjjari chueogeul ijneun ge cham swipji anha
 
(2ND FRET)
e|---------------------------------|
B|-1-1-0-1-1-1-1-0-1-0-------------|
G|--------------------0------------|
D|---------------------------------|
A|---------------------------------|
E|---------------------------------|
sigani jinado yeojeonhi
 
(2ND FRET)
e|----------------------------------|
B|-1-1-0-1-0-0-1-0-1-0--------------|
G|----------------------------------|
D|----------------------------------|
A|----------------------------------|
E|---4th(slide to 10----------------|th fret then back to 4th fret)
nal butdeuneun geugose
 
 
[Chorus]
          F            C
urineun orenji taeyang arae
             AM            G
geurimja eopsi hamkke chumeul chwo
                F          C
jeonghaejin ibyeol ttawineun eopseo
              AM            G
areumdawossdeon geu gieogeseo manna
 
 
[Bridge]
              F         G
urineun seororeul bego nuwo
            F             C
seulpeuji anheun iyagireul nanwo
             AM           G
uulhan gyeolmal ttawineun eopseo
             F               C
nan yeongwonhi neol i gieogeseo manna
 
 
[Chorus]
           F-C-AM-G
Forever young WOO..WOO
 
              F-C-AM-G
Forever we young WOO..WOO
 
       AM                    G
ireon akmongiramyeon yeongyeong kkaeji anheulge
Halaman
1234
Penulis: Nadyia Tahzani
Editor: Welly Hadinata
Sumber: Sriwijaya Post
Ikuti kami di
KOMENTAR

BERITA TERKINI

© 2020 TRIBUNnews.com Network,a subsidiary of KG Media.
All Right Reserved